Ляпис Трубецкой - Метелица

Тональность {{level}}
Intro:
   Am                                E          Am    E
e|-------------------------------------------------------
b|-------0----------------0----------0------------------
g|-----5----5---5----- 5----------4----4---------5-5--4-
d|---7--------7------7----------6---------6------7-7--6-
a|-0----------------8---------7----------------0--------
e|-------------------------------------------------------

Am                                E              Am      E
e|-----------------------------------------------------------
b|-------0----------------0----------0----------13-13--12-
g|-----5----5---5----- 5----------4----4--------14-14--13---
d|---7--------7------7----------6---------6-----------------
a|-0----------------8---------7----------------0------------
e|-----------------------------------------------------------

 Am
Мы зашли в дорогое кафе
         Dm
Как всегда я был при лаве
      E
На тебе блестело колье
     Am                E
Официант нам подал оливье

Припев: x2
A                  Dm
А за окном метель метет
 G           C
Белая красавица
 Am               Dm    
Скоро полночь настает 
 E                  A7
А бар не закрывается 
 
Музыкант играет шлягер
Вспоминаю нары, лагерь
Музыкант играет хит
А у меня душа болит

Припев: x2
А за окном метель метет
Белая красавица   
Скоро полночь настает 
А бар не закрывается 

Hm  
За окном уже светает
Em 
А тоска не отступает
F# 
Где здоровье, где года?
Hm                 F#
Не вернуть их никогда
 
Припев: 
H                    Em
А за окном метель метет
A          D
Белая красавица
Hm                 Em
Скоро полночь настает   
F#                 Hm H7
А бар не закрывается
Hm                Em
(Скоро утро настает
F#                 Hm H7
А бабки не кончаются) 

Аккорды

Видео