Чёрный Кофе - Листья

Тональность {{level}}
Вступление:
||--8-----8---5--------1---5-----7---------|
||----10--------5--5-----3---6------5-3-5--|
||------9--------5-------------------------|
||--7---------5--------0---------6---------|
||-----------------------------------------|
||-----------------------------------------|

|--8-----8---5--------1----5---7--|
|----10--------5--5-----3------5--|
|------9--------5--------------7--|
|--7---------5--------0--------6--|
|---------------------------------|
|---------------------------------| 

|--1-----0-------3----5---8--7----8------8---5--------1---5--7--||
|----1-------3-----3----6----5------10---------5---5----3----5--||
|------2-------4-------------7---------9---------5-----------7--||
|--3---------5--------0------6----7----------5--------0------6--||
|---------------------------------------------------------------||
|---------------------------------------------------------------||

  Am            Am/C           
 С ветки падающий лист
  Dm         G
 в день осенний золотист,
        F          Em         Dm
 Он по воздуху кружится и танцует, как артист,-
 F         G        Am
 С ветки падающий лист.

  Am           Am/C            
 Нет ни братьев, ни сестер, 
 Dm         G
 он один на весь простор,
        F          Em         Dm
 Он пьянеет от свободы и пылает, как костер,
 F         G        Am
 Он один на весь простор.              

Припев:
         Dm              G          
 Если б листья знать могли,
 	Em         A7
 сколько лету до земли,
      Dm           G            
 А потом лежать-валяться 
 E         Am
 под ногами и в пыли,
 F        G              Am  F 
 Если б листья знать могли,  
 Dm      Em              Am
если б листья знать могли...

 Am      F         
 Но для каждого из нас 
 Dm          G
 сердцу мил свободы час
      F            Em             Dm
 И порой не жалко жизни,чтоб хлебнуть ее хоть раз...
 F         G          Am     
 Так для каждого из нас,
 Dm         Em         Am  
 так для каждого из нас

Аккорды

Видео