Агата Кристи - Ползет

Тональность {{level}}
(1)
1|----------0-------|
2|------0-------0---|
3|----5---5---5---5-|
4|--7---------------| x4
5|------------------|
6|------------------|

(2)
1|----------0-------|
2|------0-------0---|
3|----5---5---5---5-|
4|--6---------------| x4
5|------------------|
6|------------------|

Intro(1)(2)

(1)
Я в детстве спрятался в шкафу,
А шкаф стоял в таком углу
(2)
Что безобразная луна
Его лизала из окна

(1)
Я ненавижу свет луны
Когда 12 бьют часы
(2)
И по стене такое вот
Ползет ползет ползет ползет

(1)(2)

(1)
Я в детстве спрятался в шкафу
Я в нем живу и в нем умру
(2)
Я чувствую что "это" здесь
Что "это" хочет меня съесть

(1)
Я ненавижу свет луны
Когда 12 бьют часы
(2)
Когда ко мне такое вот
Ползет ползет ползет ползет

Outro(1)(2)

Аккорды

Видео